Abrir menu principal

Desciclopédia β

Mr. Crowley

Este artigo é sobre um HIT!

É uma música chata, repetitiva e seu vizinho adora. SOLTE O SOM!

Music madonna.jpg


Cquote1.svg Filho da puta!! Seu paga pau do caralho não era pra cantar melhor do que eu!!! Cquote2.svg
Ozzy Osborne sobre Alice Cooper cantando Mr. Crowley
Cquote1.svg Você que plagia a música do créu e ainda eu sou paga pau?? Cquote2.svg
Alice Cooper sobre o comentário acima
Cquote1.svg Crééu!! Cquote2.svg
Ozzy Osborne sobre você
Cquote1.svg ME DAAA UM MOORCEEGO POOOORRA Cquote2.svg
Ozzy Osborne sobre estar com fome

Mr. Crowley ou Mister Créu é uma adaptação inglesa e britânica de uma das merdas músicas brasileiras mais intelectuais, mais bem elaboradas e com uma sonoridade que ninguém se cansa que é o Créu. Foi plagiada adaptada pelo comedor de morcegos-mor, o Ozzy Osbourne.

História da músicaEditar

 
O Ozzy aplicando o créu em pleno Show

Em um turismo para divulgar seu mais novo sucesso, o Domingo Sangrento e Doidão, a banda de Ozzy foi a vários países. Ele tentou a volta ao mundo em 80 dias para ver se voltava a ter sucesso e ter uma vendagem de álbum como antigamente, desde os tempos que tocava com os Beatles. Saindo da Inglaterra, foi à Oceania em direção a Austrália com um voo fretado pela Ocean Air divulgar para os cangurus locais, não tendo êxito. Foi à África e também nada de ter sucesso. A onda no local era a dança do Cú-Duro. O guitarrista Tonny Iommy tentou fazer algo baseado no Kuduro, mas pela perda de tempo e de dinheiro, acabou ficando de Bolso-duro. Não tinham dinheiro mais para nada, recorrendo à embaixada. Não tinham como voltar para a Inglaterra pois o embaixador inglês tinha rompido relações com a esposa do embaixador africano. A única opção era ou a Argentina ou o Brasil, sendo este último a melhor opção já que o povo brasileiro além de ser acolhedor com gringos, escuta qualquer merda.

Vindo ao Brasil, foram para São Paulo, estes pensando que os paulistas tinham um gosto por rock. Depararam-se com duplas e conjuntos sertanejos. Com um ônibus, dirigiram até o Rio de Janeiro. Como eles não iriam ter sucesso com a música nova, decidiram arrumar uns bicos para pelo menos voltarem à Europa. O Tonny Iommy ficou como camelô, vendendo jogos de praixtêichon falsificados. O Randhi Roads foi trabalhar como um pasteleiro. Sobrou como segurança de uma boate de funk ao Ozzy.

Este prestava atenção nas piriguetes rebolando nas músicas. Uma chamou a atenção dele: A Mulher Melancia O Créu. Este ouvia todos os dias. Até cantava junto. Aí foi bolando uma maconha ideia e com a ajuda dos outros integrantes, compuseram tal música.

A letra e traduçãoEditar

 
Um realizando o movimento

Mr. Crowley, what went on in your head
É créu!
É créu nelas! É créu! É créu nelas! "Vambora, que vamo"! "Vambora, que vamo"!

Ohhhh Mr. Crowley, did you talk with the dead
Prá dança créu, Tem que ter disposição
Your life style to me seemed so tragic
Prá dança créu Tem que ter habilidade
With the thrill of it all
Pois essa dança Ela não é mole não
You fooled all the people with magic
Eu venho te lembrar Que são 5 velocidades...
You waited on Satan's call
...Que são 5 velocidades...

Mr. Charming, did you think you were pure
A primeira é devagarzinho, Só o aprendizado.
Mr. Alarming, in nocturnal rapport
É assim, oh!
Uncovering things that were sacred manifest on this Earth
Créeeeu..., Créeeeu..., Créeeeu...
Conceived in the eye of a secret
Se ligou? De novo! Créeeeu..., Créeeeu..., Créeeeu...
And they scattered the afterbirth

Número 2! Créu, créu, créu! Créu, créu, créu
Mr. Crowley, won't you ride my white horse
Continua fácil, né? De novo!
Mr. Crowley, it's symbolic of course
Créu, créu, créu, Créu, créu, créu!

Mr. Crowley, won't you ride my white horse
Número 3! Créu, créu, créu, créu...
Mr. Crowley, it's symbolic of course
Tá ficando dificil, hein? Créu, créu, créu, créu
Mr. Crowley, won't you ride my white horse
Créu, créu, créu, créu

Mr. Crowley, it's symbolic of course
Agora eu quero ver a 4!
Créu, créu, créu, créu Créu, créu, créu, créu
Créu, créu, créu, créu
Créu, créu, créu
Créu, créu, créu, créu
Créu, créu, créu, créu!



Mr. Crowley, won't you ride my white horse
Vou confessar a vocês Que eu não consigo
A número 5

DJ!
Velocidade cinco
Na dança do créu!!


(solo)
Aqui no solo, vem o Créu na velocidade 5, acompanhada da guitarra e o Ozzy rebolando o morcego

Mr. Crowley, what went on in your head
É créu!
É créu nelas! É créu! É créu nelas! "Vambora, que vamo"! "Vambora, que vamo"!

Ohhhh Mr. Crowley, did you talk with the dead
Prá dança créu, Tem que ter disposição
Your life style to me seemed so tragic
Prá dança créu Tem que ter habilidade
With the thrill of it all
Pois essa dança Ela não é mole não
You fooled all the people with magic
Eu venho te lembrar Que são 5 velocidades...
You waited on Satan's call
...Que são 5 velocidades...

Mr. Charming, did you think you were pure
A primeira é devagarzinho, Só o aprendizado.
Mr. Alarming, in nocturnal rapport
É assim, oh!
Uncovering things that were sacred manifest on this Earth
Créeeeu..., Créeeeu..., Créeeeu...
Conceived in the eye of a secret
Se ligou? De novo! Créeeeu..., Créeeeu..., Créeeeu...

 
Um créu sendo aplicado na velocidade 666

And they scattered the afterbirth
Número 2! Créu, créu, créu! Créu, créu, créu
Mr. Crowley, won't you ride my white horse
Continua fácil, né? De novo!
Mr. Crowley, it's symbolic of course
Créu, créu, créu, Créu, créu, créu!

Mr. Crowley, won't you ride my white horse
Número 3! Créu, créu, créu, créu...
Mr. Crowley, it's symbolic of course
Tá ficando dificil, hein? Créu, créu, créu, créu
Mr. Crowley, won't you ride my white horse
Créu, créu, créu, créu

Mr. Crowley, it's symbolic of course
Agora eu quero ver a 4!
Créu, créu, créu, créu
Créu, créu, créu, créu
Créu, créu, créu, créu
Créu, créu, créu
Créu, créu, créu, créu
Créu, créu, créu, créu!


Mr. Crowley, won't you ride my white horse
Vou confessar a vocês
Que eu não consigo
A número 5
DJ!
Velocidade cinco
Na dança do créu!!

CifraEditar

Para você, Anônimo, poder tocar a música, veja a cifra e tablatura:

Introdução

E|---1-----1-----------1-------1------1---1-----1--1-----|
B|-1---1-----1-0h1p0-----1-------1------1---1------------|
G|---1---1-----------1-----1-------1----------1-----1----|
D|-------------1-------------1-------1-----1-----1-----1-|
A|------1------1-------1--------------------1----------1-|
D|---------------1---1-------1---------1-----1-----1-----|

Riff

E|--00000---------------------------1---22222------------|
B|----------------2-----------------1--------------------|
G|-------------------------11111----1--------------------|
D|----------------------------------1--------------------|
A|------------------000000----------1--------------------|
D|--------0000000---------------------1---------------2--|

Solo do meio

E|---11-----3-----------3------14---14-2---3-----2-------|
B|-11---13-----1-0h1p0-----0-------------3---3--------3--|
G|-------0-----------0-----00------22----------2---------|
D|---------------------------14--------14-----00---------|
A|---------11------------------17----11------------------|
D|-28-----2-------28--------14-------------14------------|

Riff #2

E|--444444------------------------------99999------------|
B|----------------5------------------10--------00--------|
G|-------------------------8888888------------88---------|
D|00-----------------------------------------------------|
A|------------------7777777------------------------------|
D|--------55555555-----------------------------------2---|

Solo Final

E|--888888888888------------------------22222------------|
B|--------999999999999999---------9999999----------------|
G|------------------------1010101010-1-------------------|
D|-----------------------------------1-------------------|
A|------------6666666666666--------000-------------------|
D|--888880013131313-------------------------------2------|